Guitar lesson for

How I Go

by Yellowcard

Video lesson

Here’s my video lesson! All tabs and notes below are used and demonstrated within the video lesson here.

Chord progression cheat sheet

For quick references to the general tonal progressions used in this song, refer to this. For instructions & notes on exactly how to approach and play the chords on guitar, see further down this page. There are plenty of chord idiosyncrasies involving modified bass notes, atypical open strings, etc that I’m not worried about covering just yet.

VERSE     (see the tabs)

CHORUS    "And I'm... drying out..."
          | E      | F#m    | B      | A      |

          "Hurry now... lay me down..."
          | C#m    | E      | B      | A      |

          "Flow..."
          | B      | C#m    | A      | E      |


BRIDGE    "Son, I am not everything..."
          | C#m    | B      | A      | E      |
          | F#m    | C#m    | A      | B      |

Guitar chords and tablature

This song is a bit tricky! While you’re doing the bulk of the work with 4-5 chords, I play each of the chords in different ways based on section of the song (roughly matching what you hear in the Yellowcard version). All of the following tabs are based on my own practice and interpretation of the various transcriptions I’ve found online – each of which wasn’t sufficient for my needs in some way. Hopefully this helps. Enjoy!

Intro

Here’s how I play the intro: each of these four chords is strummed for one measure before switching (listen to the song for the strumming pattern). For the E/F# chord, you could also play 09x900 if the chord shown below is problematic.

e-|––––0––––––––0––––––––0––––––––0––––––––
B-|––––0––––––––0––––––––0––––––––0––––––––
G-|––––9––––––––9––––––––8––––––––9––––8–––
D-|––––9––––––––6––––––––9––––––––7––––7–––
A-|––––9––––––––7––––––––7––––––––0––––0–––    ...play twice
E-|––––0––––––––0––––––––––––––––––––––––––
       E

Walk-down riff

Here’s a few ways to play the walk-down riff heard throughout this song. In this first version (which I usually prefer), I approach it as playing four distinct chords – where each chord has an accented bass note (surrounded by * characters).

E ||———————0——————————0——————————0—————————0—————
A ||———————0——————————0——————————0—————————0—————
D ||———————9——————————9——————————9—————————9————— <—— Pinky stays here
G ||————9——————————7——————————6————————————7—————
B ||————————————————————————————————————9————————
E ||—————————————————————————————————————————————

To practice this, learn these chord positions (in this order). Then, use the tab immediately above for guidance on which bass note to play.

E-|-------0----------0----------0---------0-----
A-|-------0----------0----------0---------0-----
D-|-------9----------9----------9---------9----- <-- Pinky stays here.
G-|-------9----------7----------6---------7-----
B-|-------7----------9----------7---------9-----
E-|---------------------------------------------

Other ways to play the walkdown riff

Likewise, sometimes I’ll play it using an open position based on the E-major scale:

e-|---0---|------0-0------0-0-----0-0------0-0---
B-|---0---|---0--0-0------0-0-----0-0------0-0---
G-|---1---|------------2-------1-------(2)-------
D-|---2---|-----------------------------4--------
A-|---2---|--------------------------------------
E-|---0---|--------------------------------------

And an easier solution, if you’re interested, is to play it like this:

e-|-------0-0------0-0------0-0------0-0---
B-|-------0-0------0-0------0-0------0-0---
G-|-------x-x------x-x------x-x------x-x---  <-- Mute with your ring finger.
D-|----9--------7--------6--------4--------  <-- Ring finger plays these.
A-|----------------------------------------
E-|----------------------------------------

Verse

Four chords, played for one measure. Repeat as needed. Feel free to emphasize, accent, or otherwise lead each measure with this bass note as desired – if you listen to the Yellowcard version of this song, you’ll hear this note ringing through.

e-|-----0-----------0-------------------0------------0-----
B-|-----0-----------0-------------------0------------0-----
G-|-----9-----------9-------------------9------------9-----
D-|--9--9--------7--7-------------------7------------6-----   (repeat)
A-|-----7-----------9----------------6--6---------7--7-----
E-|--------------------------------------------------------
        E          

Chorus, part 1

For the first verse, start on E. On the “go” begin the walkdown riff.

e-|-----0-------------0-------------0-----------0----
B-|-----0-------------0-------------0-----------0----
G-|-----1-------------2-------------8-----------2----
D-|-----2-------------4-------------9-----------2----
A-|-----2-------------4-------------9-----------0----
E-|-----0------------(0)-----------(0)---------------
        E            F#m            B           A
    "...I'm... drying out... crying out... this isn't how I go..."

For all other verses, start on C#m. Repeat these four chords as needed for the “Hurry now, lay me down” line.

e-|-----0-------------0-------------0-----------0----
B-|-----5-------------0-------------0-----------0----
G-|-----6-------------1-------------8-----------2----
D-|-----6-------------2-------------9-----------2----
A-|-----4-------------2-------------9-----------0----
E-|-------------------0------------(0)---------------
       C#m            E             B           A
    "...I'm... drying out... crying out... this isn't how I go..."

Chorus, part 2

For “Let these waters flow…” part of the chorus, play these chords. One measure each. Repeat as necessary.

e-|--------------------0---------0--------0----------0----
B-|--------------------0---------5--------0----------0----
G-|--------------------8---------6--------2----------1----
D-|--------------------9---------6--------2----------2----
A-|--------------------9---------4--------0----------2----
E-|--------------------7-----------------------------0----
                       B        C#m       A          E
     "Let these waters flow..."

Bridge

Finally, the bridge. Similar chords from earlier in the song, though they’re used in a different order.

e-|---0-------------0--------------0--------------------0------|-
B-|---5-------------0--------------0--------------------0------|-
G-|---6-------------4--------------2--------------------1------|-
D-|---6-------------4--------------2--------------------2------|-
A-|---4-------------2--------------0--------------------2------|-
E-|-----------------------------------------------------0------|-
     C#m            B              A                    E
     "Son, I am not everything you thought that I would be...

 -|-------0-----------0--------------0-------------0----
 -|-------0-----------5--------------0-------------0----
 -|-------2-----------6--------------2-------------4----
 -|-------4-----------6--------------2-------------4----
 -|-------4-----------4--------------0-------------2----
 -|------(0)--------------------------------------------
         F#m         C#m             A             B
     "But every story I have told is part of me........"

Lyrics

Here are the lyrics for the song. Refer to the indentation to denote the various sections which repeat (verse, chorus, bridge). I’ve included the basic chords along with these lyrics – and am not worried about specifying the exact technically correct names (for chords like Bsus4add9, or similar – here, I just call that “B” – modify each chord as you wish).

VERSE
            E*
    I could tell you the wildest of tales
    My friend the giant, and traveling sales
    Tell you all the times that I failed
    The years all behind me, the stories exhaled

CHORUS
            E             F#m           B
        And I'm... drying out... crying out...
             A           E (walk-down riff)
        This isn't how I go

            E*
    I could tell you of a man not so tall
    Who said life's a circus, and so we are small
    Tell you of a girl that I saw
    I froze in the moment, and she changed it all

            C#m           E             B
        And I'm... drying out... crying out...
             A           C#m
        This isn't how I go
                 E             B
        ...Hurry now... lay me down...
            A                B     C#m   A   E   
        And let these waters flow...............
                             B     C#m   A   E   
                          ...flow...............

BRIDGE
            C#m           B              A                    E
            Son, I am not everything you thought that I would be
                F#m        C#m             A            B
            But every story I have told is part of me--------

            E*
    And you keep the air in my lungs
    Floating along as a melody comes
    And my heart beats like timpani drums
    Keeping the time while a symphony strums

            C#m           E             B
        And I'm... drying out... crying out...
             A           C#m
        This isn't how I go
                 E             B
        ...Hurry now... lay me down...
            A                B     C#m   A   E   
        And let these waters flow................
                             B     C#m   A   E   
                          ...flow................
                             B     C#m   A   E   
                   ...let it flow................
                             B     C#m   A   E       (E   F#m   G#m   A   B)
                   ...let it flow................

            C#m           B              A                    E
            Son, I am not everything you thought that I would be
                F#m         C#m            A              B
            But every story I have told is part of me---------
            C#m              B                A               E
            Son, I leave you now but you have so much more to do
                F#m         C#m            A              B
            And every story I have told is part of you---------

                                                (walk-down riff, end on E)

Good luck!

Let me know if you have questions. I hope this was helpful.

Enjoy this lesson? Buy me a beer!

If this and my other lessons have proven helpful to you, please consider donating to my tip jar. Contributions of _any_ amount help make this project possible (including the many, many hours I put into it). Thanks!


Subscribe to my YouTube channel

Be sure to never miss a lesson by subscribing on YouTube. I put out 2-3 new videos every week. These include full song lessons, as well as covers, practice tips, behind-the-scenes updates. Thanks!


Monthly email updates

If you want to keep posted of new lessons over email, sign up for my newsletter. I'll email once a month with a digest of all my new videos. I promise: no spam.


← back to lesson list