Practice Tip #16

Palm muting basics

October 30, 2018

Video Overview

For a print-ready PDF of this lesson, become a supporter on my Patreon page. For a few bucks a month, you get access to PDFs of all my new lessons.

Editor’s notes

In this lesson I’d like to share one of more valuable strumming tips I’ve learned & embraced in the last few years: palm muting! This is one I wished I learned years earlier, to be honest. I’ll show you how to execute palm muted strumming, talk about when to use it, and play several examples of different chord progressions & riffs - with and without palm muting.

What is palm muting?

Palm muting is an incredibly effective, relatively easy-to-learn strumming technique that can go a long way in mixing up the dynamics in your guitar playing. In short, it involves resting the fleshy part on the side of your strumming hand (between your pinky and wrist) against the saddle of the guitar - just where the strings connect. If done properly, any notes you play will ring in their normal tone but will be heavily muted. That is, they will be dulled, thudded, and otherwise more percussive instead of being bright, ringy, and sustained.

Fine tuning the muting level

As I note in the video, as you move your palm up those first few inches away from the saddle (toward the top of the guitar), the mute quickly becomes more and more severe. In that, after 2-3 inches the tone of what you’re strumming may be lost entirely. Sometimes, this is good (full muted strumming can have great percussive effect) - but other times, it’s not ideal. Play around with your palm position - as if you’re fine-tuning a dial on a palm muting meter. Remember, with your palm resting up against the saddle, you’ll have the most possible tone sounding through… and moving away from the saddle dials down the tone while increasing the mute.

When to use palm muting

Straight up, this is your choice - there’s no wrong or right answer. Sometimes a song may call for heavy use of it, other times it may not be used at all. A good rule of thumb I’d suggest, which applies to anything with percussive dynamics: understand the role of contrast when you’re playing music. If a song uses a single chord progression and you play it exactly the same way throughout the song, this can come off as potentially boring and monotonous. Instead, try mixing it up. Maybe employ palm muting during the verses (dialing things down), and then let loose with full ringing strumming during the chorus (let it rock). This contrast can make the song sound more interesting, with natural ups and downs.

Exercises to try with palm muting

“I Walk the Line” intro, by Johnny Cash:

e-|-----------|--------------------------|--------------------------|-
B-|-----------|--------------------------|----3-3---3-3-------------|-
G-|-----------|----2-2---2-2-------------|----2-2---2-2-------------|-
D-|-----------|----2-2---2-2-------------|--0-----------0--0--------|-
A-|-----------|--0-----------0--0--2--4--|--------0-----------4--2--|-
E-|--0--2--4--|--------0-----------------|--------------------------|-
                 A                          D


             -|--------------------------|--------------------------|-
             -|----2-2---2-2-------------|--------------------------|-
             -|----2-2---2-2-------------|----1-1---1-1-------------|-
             -|--------2-----------------|----2-2---2-2-------------|-
             -|--0-----------0--0--------|--------2-----2-----------|-
             -|--------------------4--2--|--0--------------0--2--0--|-
                 A                          E

             -|--------------------------|--------------------------|-
             -|----0-0---0-0-------------|--------------------------|-
             -|----2-2---2-2-------------|----1-1---1-1---1-1---1-1-|-
             -|--------1-----------------|----2-2---2-2---2-2---2-2-|-
             -|--2-----------2--0--------|--------2-----------2-----|-
             -|--------------------4--2--|--0-----------0-----------|-
                 B7                         E

“Sweet Caroline” intro by Neil Diamond:

e-|---------------------------------------------------|-
B-|---------------------------------------------------|-
G-|---------------------------------------------------|-
D-|---------------------------------------------------|-
A-|---2--4--5-------2--4--5--4--2-------5--4--2-------|-
E-|--(0)-----------------(0)--------------------------|-

 -|---------------------------------------------------|-
 -|---------------------------------------------------|-
 -|---------------------------------------------------|-
 -|---------------------------------------------------|-
 -|---5--7--9-------5--7--9--7--5-------9--7--5-------|-
 -|--(0)-----------------(0)--------------------------|-

 -|---------------------------------------------------||
 -|---------------------------------------------------||
 -|---------------------------------------------------||
 -|---------------------------------------11----9-----||
 -|---9--11--12-------9--11--12-----11----------------||
 -|--(0)--------------------(0)-----------------------||

“Folsom Prison Blues” intro, by Johnny Cash:

e-|---------------------------0-0-----0-0----0-0-----0-0---
B-|---------------------------0-0-----0-0----0-0-----0-0---
G-|---------------------------1-1-----1-1----1-1-----1-1---
D-|---------1---1-------------2-2-----2-2----2-2-----2-2--- ...etc.
A-|---2-2-2--------2----------2-2---2--------2-2---2-------
E-|-------------------2~~---0--------------0---------------
      B7                    E

Blues strumming in E & A:

E ||–––––––––––––––––––––––––––––––––––
B ||–––––––––––––––––––––––––––––––––––
G ||–––––––––––––––––––––––––––––––––––
D ||–––(2)––––––––––––––––––––––––––––––
A ||––––2––––2––4––––4––2––––2––4–––4––  ...repeat
E ||––––0––––0––0––––0––0––––0––0–––0––
        E

E ||–––––––––––––––––––––––––––––––––––
B ||–––––––––––––––––––––––––––––––––––
G ||–––(2)–––––––––––––––––––––––––––––
D ||––––2––––2––4––––4––2––––2––4–––4––
A ||––––0––––0––0––––0––0––––0––0–––0––   ...repeat
E ||–––––––––––––––––––––––––––––––––––
        A

Good luck!

I hope this was helpful for you. As always, it’s best to see my video lesson for reference. Please let me know what questions you have, and until next time - best of luck!

Enjoy this lesson? Buy me a beer!

If this and my other lessons have proven helpful to you, please consider donating to my tip jar. Contributions of any amount help make this project possible (including the many, many hours I put into it). Thanks!


Subscribe to my YouTube channel

Be sure to never miss a lesson by subscribing on YouTube. I put out 2-3 new videos every week. These include full song lessons, as well as covers, practice tips, behind-the-scenes updates. Thanks!


Recent video lessons:

📝 Print-friendly PDFs now available for all new lessons I make, including all those listed below. Get a free sample »


Monthly email updates

If you want to keep posted of new lessons over email, sign up for my newsletter. I'll email once a month with a digest of all my new videos. I promise: no spam.


← back to lesson list